ISO-10303-21;
HEADER;
FILE_DESCRIPTION (( 'STEP AP203' ),
    '1' );
FILE_NAME ('Q-OZHWP-R2-10-980-M.STEP',
    '2020-12-22T09:12:54',
    ( '' ),
    ( '' ),
    'SwSTEP 2.0',
    'SolidWorks 2020',
    '' );
FILE_SCHEMA (( 'CONFIG_CONTROL_DESIGN' ));
ENDSEC;

DATA;
#1 = ORIENTED_EDGE ( 'NONE', *, *, #196, .T. ) ;
#2 = APPLICATION_PROTOCOL_DEFINITION ( 'international standard', 'config_control_design', 1994, #181 ) ;
#3 = ORIENTED_EDGE ( 'NONE', *, *, #75, .T. ) ;
#4 = APPLICATION_PROTOCOL_DEFINITION ( 'international standard', 'config_control_design', 1994, #216 ) ;
#5 = ORIENTED_EDGE ( 'NONE', *, *, #196, .F. ) ;
#6 = EDGE_CURVE ( 'NONE', #292, #210, #12, .T. ) ;
#7 = DIRECTION ( 'NONE',  ( 0.000000000000000000, 0.000000000000000000, -1.000000000000000000 ) ) ;
#8 = EDGE_LOOP ( 'NONE', ( #115, #315, #206, #5 ) ) ;
#9 = FACE_OUTER_BOUND ( 'NONE', #248, .T. ) ;
#10 = LOCAL_TIME ( 17, 12, 54.00000000000000000, #319 ) ;
#11 = CARTESIAN_POINT ( 'NONE',  ( 3.000000000000000000, 1.555301434917138433E-15, -12.69999999999999929 ) ) ;
#12 = CIRCLE ( 'NONE', #301, 5.000000000000001776 ) ;
#13 = DIRECTION ( 'NONE',  ( -1.000000000000000000, -0.000000000000000000, -0.000000000000000000 ) ) ;
#14 = CC_DESIGN_PERSON_AND_ORGANIZATION_ASSIGNMENT ( #209, #286, ( #132 ) ) ;
#15 = CARTESIAN_POINT ( 'NONE',  ( -1.250000000000000222, 6.123233995736767268E-16, -5.000000000000000888 ) ) ;
#16 = DIRECTION ( 'NONE',  ( -1.000000000000000000, 0.000000000000000000, -0.000000000000000000 ) ) ;
#17 = VECTOR ( 'NONE', #273, 1000.000000000000000 ) ;
#18 = DIRECTION ( 'NONE',  ( -1.000000000000000000, -0.000000000000000000, -0.000000000000000000 ) ) ;
#19 = FACE_OUTER_BOUND ( 'NONE', #137, .T. ) ;
#20 = AXIS2_PLACEMENT_3D ( 'NONE', #334, #279, #197 ) ;
#21 = DIRECTION ( 'NONE',  ( -1.000000000000000000, -0.000000000000000000, -0.000000000000000000 ) ) ;
#22 = CYLINDRICAL_SURFACE ( 'NONE', #44, 12.69999999999999929 ) ;
#23 = MECHANICAL_CONTEXT ( 'NONE', #181, 'mechanical' ) ;
#24 = ORIENTED_EDGE ( 'NONE', *, *, #6, .F. ) ;
#25 = AXIS2_PLACEMENT_3D ( 'NONE', #27, #135, #83 ) ;
#26 = CC_DESIGN_PERSON_AND_ORGANIZATION_ASSIGNMENT ( #186, #107, ( #211 ) ) ;
#27 = CARTESIAN_POINT ( 'NONE',  ( 0.000000000000000000, 0.000000000000000000, 0.000000000000000000 ) ) ;
#28 = ORIENTED_EDGE ( 'NONE', *, *, #268, .T. ) ;
#29 = PERSON_AND_ORGANIZATION ( #40, #214 ) ;
#30 = VERTEX_POINT ( 'NONE', #324 ) ;
#31 = VERTEX_POINT ( 'NONE', #222 ) ;
#32 = APPROVAL_ROLE ( '' ) ;
#33 =( GEOMETRIC_REPRESENTATION_CONTEXT ( 3 ) GLOBAL_UNCERTAINTY_ASSIGNED_CONTEXT ( ( #91 ) ) GLOBAL_UNIT_ASSIGNED_CONTEXT ( ( #160, #207, #234 ) ) REPRESENTATION_CONTEXT ( 'NONE', 'WORKASPACE' ) );
#34 = ORIENTED_EDGE ( 'NONE', *, *, #81, .F. ) ;
#35 = COORDINATED_UNIVERSAL_TIME_OFFSET ( 8, 0, .AHEAD. ) ;
#36 = CARTESIAN_POINT ( 'NONE',  ( 3.000000000000000000, 12.69999999999999929, 0.000000000000000000 ) ) ;
#37 = FACE_BOUND ( 'NONE', #111, .T. ) ;
#38 = AXIS2_PLACEMENT_3D ( 'NONE', #150, #98, #45 ) ;
#39 = DIRECTION ( 'NONE',  ( 0.000000000000000000, 0.000000000000000000, -1.000000000000000000 ) ) ;
#40 = PERSON ( 'UNSPECIFIED', 'UNSPECIFIED', 'UNSPECIFIED', ('UNSPECIFIED'), ('UNSPECIFIED'), ('UNSPECIFIED') ) ;
#41 = SHAPE_DEFINITION_REPRESENTATION ( #167, #328 ) ;
#42 = CYLINDRICAL_SURFACE ( 'NONE', #78, 5.000000000000000888 ) ;
#43 = CARTESIAN_POINT ( 'NONE',  ( -1.614212418857619014, 0.000000000000000000, 0.000000000000000000 ) ) ;
#44 = AXIS2_PLACEMENT_3D ( 'NONE', #223, #47, #99 ) ;
#45 = DIRECTION ( 'NONE',  ( 0.000000000000000000, 0.000000000000000000, 1.000000000000000000 ) ) ;
#46 = LINE ( 'NONE', #124, #151 ) ;
#47 = DIRECTION ( 'NONE',  ( -1.000000000000000000, -0.000000000000000000, -0.000000000000000000 ) ) ;
#48 = ADVANCED_FACE ( 'NONE', ( #172, #323 ), #90, .F. ) ;
#49 = CIRCLE ( 'NONE', #38, 5.000000000000000000 ) ;
#50 = FACE_OUTER_BOUND ( 'NONE', #8, .T. ) ;
#51 = PERSON_AND_ORGANIZATION ( #40, #214 ) ;
#52 = ADVANCED_FACE ( 'NONE', ( #37, #326 ), #141, .F. ) ;
#53 = EDGE_CURVE ( 'NONE', #30, #54, #242, .T. ) ;
#54 = VERTEX_POINT ( 'NONE', #217 ) ;
#55 = APPROVAL_PERSON_ORGANIZATION ( #244, #142, #272 ) ;
#56 = VERTEX_POINT ( 'NONE', #69 ) ;
#57 = EDGE_LOOP ( 'NONE', ( #266, #219 ) ) ;
#58 = DATE_AND_TIME ( #86, #297 ) ;
#59 = ORIENTED_EDGE ( 'NONE', *, *, #305, .F. ) ;
#60 = DATE_AND_TIME ( #147, #10 ) ;
#61 = AXIS2_PLACEMENT_3D ( 'NONE', #282, #303, #227 ) ;
#62 = ORIENTED_EDGE ( 'NONE', *, *, #53, .F. ) ;
#63 = APPROVAL_DATE_TIME ( #65, #142 ) ;
#64 = VERTEX_POINT ( 'NONE', #122 ) ;
#65 = DATE_AND_TIME ( #246, #218 ) ;
#66 = DIRECTION ( 'NONE',  ( 0.000000000000000000, 0.000000000000000000, 1.000000000000000000 ) ) ;
#67 = DATE_TIME_ROLE ( 'classification_date' ) ;
#68 = DIRECTION ( 'NONE',  ( -1.000000000000000000, -0.000000000000000000, -0.000000000000000000 ) ) ;
#69 = CARTESIAN_POINT ( 'NONE',  ( 1.250000000000000444, 0.000000000000000000, 5.000000000000000000 ) ) ;
#70 = EDGE_CURVE ( 'NONE', #205, #309, #199, .T. ) ;
#71 = CARTESIAN_POINT ( 'NONE',  ( -1.614212418857619014, 0.000000000000000000, 0.000000000000000000 ) ) ;
#72 = CARTESIAN_POINT ( 'NONE',  ( 3.000000000000000000, 0.000000000000000000, 0.000000000000000000 ) ) ;
#73 = APPROVAL_PERSON_ORGANIZATION ( #133, #108, #32 ) ;
#74 = PLANE ( 'NONE',  #284 ) ;
#75 = EDGE_CURVE ( 'NONE', #210, #31, #295, .T. ) ;
#76 = CARTESIAN_POINT ( 'NONE',  ( 1.250000000000000444, 0.000000000000000000, 0.000000000000000000 ) ) ;
#77 = DIRECTION ( 'NONE',  ( -1.000000000000000000, -0.000000000000000000, -0.000000000000000000 ) ) ;
#78 = AXIS2_PLACEMENT_3D ( 'NONE', #71, #68, #123 ) ;
#79 = PERSON_AND_ORGANIZATION ( #40, #214 ) ;
#80 = ORIENTED_EDGE ( 'NONE', *, *, #293, .F. ) ;
#81 = EDGE_CURVE ( 'NONE', #162, #205, #195, .T. ) ;
#82 = CIRCLE ( 'NONE', #322, 5.000000000000000888 ) ;
#83 = DIRECTION ( 'NONE',  ( 1.000000000000000000, 0.000000000000000000, 0.000000000000000000 ) ) ;
#84 = VERTEX_POINT ( 'NONE', #121 ) ;
#85 = CC_DESIGN_PERSON_AND_ORGANIZATION_ASSIGNMENT ( #144, #93, ( #225 ) ) ;
#86 = CALENDAR_DATE ( 2020, 22, 12 ) ;
#87 = ORIENTED_EDGE ( 'NONE', *, *, #285, .T. ) ;
#88 = CIRCLE ( 'NONE', #179, 12.69999999999999929 ) ;
#89 = CARTESIAN_POINT ( 'NONE',  ( -1.250000000000000222, 5.000000000000000000, 0.000000000000000000 ) ) ;
#90 = PLANE ( 'NONE',  #277 ) ;
#91 = UNCERTAINTY_MEASURE_WITH_UNIT (LENGTH_MEASURE( 1.000000000000000082E-05 ), #160, 'distance_accuracy_value', 'NONE');
#92 = DIRECTION ( 'NONE',  ( -1.000000000000000000, -0.000000000000000000, -0.000000000000000000 ) ) ;
#93 = PERSON_AND_ORGANIZATION_ROLE ( 'classification_officer' ) ;
#94 = CARTESIAN_POINT ( 'NONE',  ( 3.000000000000000000, 0.000000000000000000, 0.000000000000000000 ) ) ;
#95 = AXIS2_PLACEMENT_3D ( 'NONE', #302, #259, #7 ) ;
#96 = PRODUCT_DEFINITION ( 'UNKNOWN', '', #132, #307 ) ;
#97 = DIRECTION ( 'NONE',  ( -0.000000000000000000, 0.000000000000000000, 1.000000000000000000 ) ) ;
#98 = DIRECTION ( 'NONE',  ( -1.000000000000000000, -0.000000000000000000, -0.000000000000000000 ) ) ;
#99 = DIRECTION ( 'NONE',  ( 0.000000000000000000, 0.000000000000000000, 1.000000000000000000 ) ) ;
#100 = ADVANCED_FACE ( 'NONE', ( #169 ), #42, .F. ) ;
#101 = DIRECTION ( 'NONE',  ( -0.000000000000000000, 0.000000000000000000, 1.000000000000000000 ) ) ;
#102 = EDGE_CURVE ( 'NONE', #292, #56, #321, .T. ) ;
#103 = LINE ( 'NONE', #178, #203 ) ;
#104 = DIRECTION ( 'NONE',  ( 0.000000000000000000, 0.000000000000000000, 1.000000000000000000 ) ) ;
#105 = CIRCLE ( 'NONE', #221, 5.000000000000000000 ) ;
#106 = LOCAL_TIME ( 17, 12, 54.00000000000000000, #140 ) ;
#107 = PERSON_AND_ORGANIZATION_ROLE ( 'design_owner' ) ;
#108 = APPROVAL ( #263, 'UNSPECIFIED' ) ;
#109 = ORIENTED_EDGE ( 'NONE', *, *, #231, .T. ) ;
#110 = APPROVAL_ROLE ( '' ) ;
#111 = EDGE_LOOP ( 'NONE', ( #238, #194 ) ) ;
#112 = CC_DESIGN_DATE_AND_TIME_ASSIGNMENT ( #60, #67, ( #225 ) ) ;
#113 = AXIS2_PLACEMENT_3D ( 'NONE', #129, #304, #155 ) ;
#114 = COORDINATED_UNIVERSAL_TIME_OFFSET ( 8, 0, .AHEAD. ) ;
#115 = ORIENTED_EDGE ( 'NONE', *, *, #325, .F. ) ;
#116 = EDGE_LOOP ( 'NONE', ( #59, #80 ) ) ;
#117 = ADVANCED_FACE ( 'NONE', ( #9 ), #149, .F. ) ;
#118 = DIRECTION ( 'NONE',  ( 0.000000000000000000, 0.000000000000000000, -1.000000000000000000 ) ) ;
#119 = VECTOR ( 'NONE', #294, 1000.000000000000000 ) ;
#120 = CARTESIAN_POINT ( 'NONE',  ( -1.614212418857619014, 0.000000000000000000, 5.000000000000000888 ) ) ;
#121 = CARTESIAN_POINT ( 'NONE',  ( -3.000000000000000000, 1.555301434917138433E-15, -12.69999999999999929 ) ) ;
#122 = CARTESIAN_POINT ( 'NONE',  ( -1.250000000000000222, 0.000000000000000000, 5.000000000000000888 ) ) ;
#123 = DIRECTION ( 'NONE',  ( 0.000000000000000000, 0.000000000000000000, 1.000000000000000000 ) ) ;
#124 = CARTESIAN_POINT ( 'NONE',  ( -1.614212418857619014, 0.000000000000000000, 5.000000000000000888 ) ) ;
#125 = DIRECTION ( 'NONE',  ( -1.000000000000000000, -0.000000000000000000, -0.000000000000000000 ) ) ;
#126 = CC_DESIGN_SECURITY_CLASSIFICATION ( #225, ( #132 ) ) ;
#127 = DIRECTION ( 'NONE',  ( 0.000000000000000000, 0.000000000000000000, -1.000000000000000000 ) ) ;
#128 = LOCAL_TIME ( 17, 12, 54.00000000000000000, #114 ) ;
#129 = CARTESIAN_POINT ( 'NONE',  ( -3.000000000000000000, 0.000000000000000000, 0.000000000000000000 ) ) ;
#130 = CARTESIAN_POINT ( 'NONE',  ( 3.000000000000000000, 0.000000000000000000, 5.000000000000001776 ) ) ;
#131 = AXIS2_PLACEMENT_3D ( 'NONE', #43, #254, #202 ) ;
#132 = PRODUCT_DEFINITION_FORMATION_WITH_SPECIFIED_SOURCE ( 'ANY', '', #211, .NOT_KNOWN. ) ;
#133 = PERSON_AND_ORGANIZATION ( #40, #214 ) ;
#134 = VERTEX_POINT ( 'NONE', #11 ) ;
#135 = DIRECTION ( 'NONE',  ( 0.000000000000000000, 0.000000000000000000, 1.000000000000000000 ) ) ;
#136 = CC_DESIGN_PERSON_AND_ORGANIZATION_ASSIGNMENT ( #51, #158, ( #132 ) ) ;
#137 = EDGE_LOOP ( 'NONE', ( #28, #258, #168, #208 ) ) ;
#138 = ORIENTED_EDGE ( 'NONE', *, *, #329, .T. ) ;
#139 = CIRCLE ( 'NONE', #265, 5.000000000000000000 ) ;
#140 = COORDINATED_UNIVERSAL_TIME_OFFSET ( 8, 0, .AHEAD. ) ;
#141 = PLANE ( 'NONE',  #314 ) ;
#142 = APPROVAL ( #291, 'UNSPECIFIED' ) ;
#143 = ORIENTED_EDGE ( 'NONE', *, *, #192, .T. ) ;
#144 = PERSON_AND_ORGANIZATION ( #40, #214 ) ;
#145 = AXIS2_PLACEMENT_3D ( 'NONE', #89, #269, #39 ) ;
#146 = ORIENTED_EDGE ( 'NONE', *, *, #267, .T. ) ;
#147 = CALENDAR_DATE ( 2020, 22, 12 ) ;
#148 = CARTESIAN_POINT ( 'NONE',  ( -1.614212418857619014, 0.000000000000000000, 0.000000000000000000 ) ) ;
#149 = PLANE ( 'NONE',  #145 ) ;
#150 = CARTESIAN_POINT ( 'NONE',  ( 1.250000000000000444, 0.000000000000000000, 0.000000000000000000 ) ) ;
#151 = VECTOR ( 'NONE', #176, 1000.000000000000000 ) ;
#152 = ADVANCED_FACE ( 'NONE', ( #215 ), #270, .F. ) ;
#153 = CARTESIAN_POINT ( 'NONE',  ( -3.000000000000000000, 0.000000000000000000, 0.000000000000000000 ) ) ;
#154 = CARTESIAN_POINT ( 'NONE',  ( -1.250000000000000222, 0.000000000000000000, 0.000000000000000000 ) ) ;
#155 = DIRECTION ( 'NONE',  ( 0.000000000000000000, 0.000000000000000000, 1.000000000000000000 ) ) ;
#156 = CIRCLE ( 'NONE', #239, 12.69999999999999929 ) ;
#157 = CARTESIAN_POINT ( 'NONE',  ( -1.614212418857619014, 0.000000000000000000, 0.000000000000000000 ) ) ;
#158 = PERSON_AND_ORGANIZATION_ROLE ( 'design_supplier' ) ;
#159 = ORIENTED_EDGE ( 'NONE', *, *, #305, .T. ) ;
#160 =( LENGTH_UNIT ( ) NAMED_UNIT ( * ) SI_UNIT ( .MILLI., .METRE. ) );
#161 = EDGE_LOOP ( 'NONE', ( #318, #3, #109, #257 ) ) ;
#162 = VERTEX_POINT ( 'NONE', #15 ) ;
#163 = DATE_TIME_ROLE ( 'creation_date' ) ;
#164 = CC_DESIGN_APPROVAL ( #142, ( #225 ) ) ;
#165 = ADVANCED_FACE ( 'NONE', ( #327 ), #74, .F. ) ;
#166 = AXIS2_PLACEMENT_3D ( 'NONE', #332, #18, #333 ) ;
#167 = PRODUCT_DEFINITION_SHAPE ( 'NONE', 'NONE',  #96 ) ;
#168 = ORIENTED_EDGE ( 'NONE', *, *, #70, .T. ) ;
#169 = FACE_OUTER_BOUND ( 'NONE', #311, .T. ) ;
#170 = DIRECTION ( 'NONE',  ( 1.000000000000000000, 0.000000000000000000, 0.000000000000000000 ) ) ;
#171 = AXIS2_PLACEMENT_3D ( 'NONE', #148, #13, #247 ) ;
#172 = FACE_OUTER_BOUND ( 'NONE', #116, .T. ) ;
#173 = CARTESIAN_POINT ( 'NONE',  ( -1.614212418857619014, 6.123233995736767268E-16, -5.000000000000000888 ) ) ;
#174 = DIRECTION ( 'NONE',  ( -1.000000000000000000, -0.000000000000000000, -0.000000000000000000 ) ) ;
#175 = CARTESIAN_POINT ( 'NONE',  ( -3.000000000000000000, 0.000000000000000000, 0.000000000000000000 ) ) ;
#176 = DIRECTION ( 'NONE',  ( -1.000000000000000000, -0.000000000000000000, -0.000000000000000000 ) ) ;
#177 = FACE_OUTER_BOUND ( 'NONE', #188, .T. ) ;
#178 = CARTESIAN_POINT ( 'NONE',  ( -1.614212418857619014, 1.555301434917138433E-15, -12.69999999999999929 ) ) ;
#179 = AXIS2_PLACEMENT_3D ( 'NONE', #175, #174, #200 ) ;
#180 = ORIENTED_EDGE ( 'NONE', *, *, #232, .T. ) ;
#181 = APPLICATION_CONTEXT ( 'configuration controlled 3d designs of mechanical parts and assemblies' ) ;
#182 = AXIS2_PLACEMENT_3D ( 'NONE', #157, #251, #104 ) ;
#183 = APPROVAL_PERSON_ORGANIZATION ( #29, #260, #110 ) ;
#184 = PERSON_AND_ORGANIZATION_ROLE ( 'creator' ) ;
#185 = EDGE_LOOP ( 'NONE', ( #237, #235 ) ) ;
#186 = PERSON_AND_ORGANIZATION ( #40, #214 ) ;
#187 = ORIENTED_EDGE ( 'NONE', *, *, #325, .T. ) ;
#188 = EDGE_LOOP ( 'NONE', ( #159, #187, #261, #62 ) ) ;
#189 = CIRCLE ( 'NONE', #95, 5.000000000000000888 ) ;
#190 = DIRECTION ( 'NONE',  ( -1.000000000000000000, -0.000000000000000000, -0.000000000000000000 ) ) ;
#191 = DIRECTION ( 'NONE',  ( -1.000000000000000000, -0.000000000000000000, -0.000000000000000000 ) ) ;
#192 = EDGE_CURVE ( 'NONE', #64, #309, #46, .T. ) ;
#193 = CARTESIAN_POINT ( 'NONE',  ( -3.000000000000000000, 0.000000000000000000, 0.000000000000000000 ) ) ;
#194 = ORIENTED_EDGE ( 'NONE', *, *, #70, .F. ) ;
#195 = LINE ( 'NONE', #173, #296 ) ;
#196 = EDGE_CURVE ( 'NONE', #84, #54, #88, .T. ) ;
#197 = DIRECTION ( 'NONE',  ( 0.000000000000000000, 0.000000000000000000, 1.000000000000000000 ) ) ;
#198 = DIRECTION ( 'NONE',  ( -1.000000000000000000, -0.000000000000000000, -0.000000000000000000 ) ) ;
#199 = CIRCLE ( 'NONE', #228, 5.000000000000000000 ) ;
#200 = DIRECTION ( 'NONE',  ( 0.000000000000000000, 0.000000000000000000, 1.000000000000000000 ) ) ;
#201 = CARTESIAN_POINT ( 'NONE',  ( -3.000000000000000000, 6.123233995736766282E-16, -5.000000000000000000 ) ) ;
#202 = DIRECTION ( 'NONE',  ( 0.000000000000000000, 0.000000000000000000, 1.000000000000000000 ) ) ;
#203 = VECTOR ( 'NONE', #198, 1000.000000000000000 ) ;
#204 = DATE_AND_TIME ( #240, #106 ) ;
#205 = VERTEX_POINT ( 'NONE', #201 ) ;
#206 = ORIENTED_EDGE ( 'NONE', *, *, #53, .T. ) ;
#207 =( NAMED_UNIT ( * ) PLANE_ANGLE_UNIT ( ) SI_UNIT ( $, .RADIAN. ) );
#208 = ORIENTED_EDGE ( 'NONE', *, *, #192, .F. ) ;
#209 = PERSON_AND_ORGANIZATION ( #40, #214 ) ;
#210 = VERTEX_POINT ( 'NONE', #281 ) ;
#211 = PRODUCT ( 'Q-OZHWP-R2-10-980-M', 'Q-OZHWP-R2-10-980-M', '', ( #23 ) ) ;
#212 = CC_DESIGN_APPROVAL ( #108, ( #132 ) ) ;
#213 = CARTESIAN_POINT ( 'NONE',  ( -1.614212418857619014, 6.123233995736767268E-16, -5.000000000000000888 ) ) ;
#214 = ORGANIZATION ( 'UNSPECIFIED', 'UNSPECIFIED', '' ) ;
#215 = FACE_OUTER_BOUND ( 'NONE', #287, .T. ) ;
#216 = APPLICATION_CONTEXT ( 'configuration controlled 3d designs of mechanical parts and assemblies' ) ;
#217 = CARTESIAN_POINT ( 'NONE',  ( -3.000000000000000000, 0.000000000000000000, 12.69999999999999929 ) ) ;
#218 = LOCAL_TIME ( 17, 12, 54.00000000000000000, #35 ) ;
#219 = ORIENTED_EDGE ( 'NONE', *, *, #231, .F. ) ;
#220 = EDGE_CURVE ( 'NONE', #210, #292, #331, .T. ) ;
#221 = AXIS2_PLACEMENT_3D ( 'NONE', #76, #21, #250 ) ;
#222 = CARTESIAN_POINT ( 'NONE',  ( 1.250000000000000444, 6.123233995736766282E-16, -5.000000000000000000 ) ) ;
#223 = CARTESIAN_POINT ( 'NONE',  ( -1.614212418857619014, 0.000000000000000000, 0.000000000000000000 ) ) ;
#224 = CARTESIAN_POINT ( 'NONE',  ( -3.000000000000000000, 0.000000000000000000, 5.000000000000000000 ) ) ;
#225 = SECURITY_CLASSIFICATION ( '', '', #256 ) ;
#226 = MANIFOLD_SOLID_BREP ( 'Ðý×', #278 ) ;
#227 = DIRECTION ( 'NONE',  ( 0.000000000000000000, 0.000000000000000000, 1.000000000000000000 ) ) ;
#228 = AXIS2_PLACEMENT_3D ( 'NONE', #193, #190, #245 ) ;
#229 = FACE_OUTER_BOUND ( 'NONE', #161, .T. ) ;
#230 = DIRECTION ( 'NONE',  ( 0.000000000000000000, 0.000000000000000000, 1.000000000000000000 ) ) ;
#231 = EDGE_CURVE ( 'NONE', #31, #56, #105, .T. ) ;
#232 = EDGE_CURVE ( 'NONE', #54, #84, #253, .T. ) ;
#233 = CIRCLE ( 'NONE', #166, 12.69999999999999929 ) ;
#234 =( NAMED_UNIT ( * ) SI_UNIT ( $, .STERADIAN. ) SOLID_ANGLE_UNIT ( ) );
#235 = ORIENTED_EDGE ( 'NONE', *, *, #220, .T. ) ;
#236 = DATE_AND_TIME ( #313, #128 ) ;
#237 = ORIENTED_EDGE ( 'NONE', *, *, #6, .T. ) ;
#238 = ORIENTED_EDGE ( 'NONE', *, *, #285, .F. ) ;
#239 = AXIS2_PLACEMENT_3D ( 'NONE', #72, #77, #230 ) ;
#240 = CALENDAR_DATE ( 2020, 22, 12 ) ;
#241 = ORIENTED_EDGE ( 'NONE', *, *, #268, .F. ) ;
#242 = LINE ( 'NONE', #243, #119 ) ;
#243 = CARTESIAN_POINT ( 'NONE',  ( -1.614212418857619014, 0.000000000000000000, 12.69999999999999929 ) ) ;
#244 = PERSON_AND_ORGANIZATION ( #40, #214 ) ;
#245 = DIRECTION ( 'NONE',  ( 0.000000000000000000, 0.000000000000000000, 1.000000000000000000 ) ) ;
#246 = CALENDAR_DATE ( 2020, 22, 12 ) ;
#247 = DIRECTION ( 'NONE',  ( 0.000000000000000000, 0.000000000000000000, 1.000000000000000000 ) ) ;
#248 = EDGE_LOOP ( 'NONE', ( #241, #317 ) ) ;
#249 = DIRECTION ( 'NONE',  ( 0.000000000000000000, 0.000000000000000000, 1.000000000000000000 ) ) ;
#250 = DIRECTION ( 'NONE',  ( 0.000000000000000000, 0.000000000000000000, 1.000000000000000000 ) ) ;
#251 = DIRECTION ( 'NONE',  ( -1.000000000000000000, -0.000000000000000000, -0.000000000000000000 ) ) ;
#252 = DIRECTION ( 'NONE',  ( -1.000000000000000000, 0.000000000000000000, -0.000000000000000000 ) ) ;
#253 = CIRCLE ( 'NONE', #113, 12.69999999999999929 ) ;
#254 = DIRECTION ( 'NONE',  ( -1.000000000000000000, -0.000000000000000000, -0.000000000000000000 ) ) ;
#255 = ADVANCED_FACE ( 'NONE', ( #19 ), #276, .F. ) ;
#256 = SECURITY_CLASSIFICATION_LEVEL ( 'unclassified' ) ;
#257 = ORIENTED_EDGE ( 'NONE', *, *, #102, .F. ) ;
#258 = ORIENTED_EDGE ( 'NONE', *, *, #81, .T. ) ;
#259 = DIRECTION ( 'NONE',  ( 1.000000000000000000, 0.000000000000000000, 0.000000000000000000 ) ) ;
#260 = APPROVAL ( #335, 'UNSPECIFIED' ) ;
#261 = ORIENTED_EDGE ( 'NONE', *, *, #232, .F. ) ;
#262 = ADVANCED_FACE ( 'NONE', ( #177 ), #330, .T. ) ;
#263 = APPROVAL_STATUS ( 'not_yet_approved' ) ;
#264 = ORIENTED_EDGE ( 'NONE', *, *, #75, .F. ) ;
#265 = AXIS2_PLACEMENT_3D ( 'NONE', #153, #125, #249 ) ;
#266 = ORIENTED_EDGE ( 'NONE', *, *, #267, .F. ) ;
#267 = EDGE_CURVE ( 'NONE', #56, #31, #49, .T. ) ;
#268 = EDGE_CURVE ( 'NONE', #64, #162, #82, .T. ) ;
#269 = DIRECTION ( 'NONE',  ( 1.000000000000000000, 0.000000000000000000, 0.000000000000000000 ) ) ;
#270 = CYLINDRICAL_SURFACE ( 'NONE', #171, 5.000000000000000888 ) ;
#271 = CARTESIAN_POINT ( 'NONE',  ( -3.000000000000000000, 5.000000000000000000, 0.000000000000000000 ) ) ;
#272 = APPROVAL_ROLE ( '' ) ;
#273 = DIRECTION ( 'NONE',  ( -1.000000000000000000, -0.000000000000000000, -0.000000000000000000 ) ) ;
#274 = PRODUCT_RELATED_PRODUCT_CATEGORY ( 'detail', '', ( #211 ) ) ;
#275 = ADVANCED_FACE ( 'NONE', ( #50 ), #22, .T. ) ;
#276 = CYLINDRICAL_SURFACE ( 'NONE', #182, 5.000000000000000888 ) ;
#277 = AXIS2_PLACEMENT_3D ( 'NONE', #36, #16, #97 ) ;
#278 = CLOSED_SHELL ( 'NONE', ( #262, #255, #280, #165, #100, #152, #52, #275, #48, #117 ) ) ;
#279 = DIRECTION ( 'NONE',  ( -1.000000000000000000, -0.000000000000000000, -0.000000000000000000 ) ) ;
#280 = ADVANCED_FACE ( 'NONE', ( #229 ), #300, .F. ) ;
#281 = CARTESIAN_POINT ( 'NONE',  ( 3.000000000000000000, 6.123233995736768255E-16, -5.000000000000001776 ) ) ;
#282 = CARTESIAN_POINT ( 'NONE',  ( -1.614212418857619014, 0.000000000000000000, 0.000000000000000000 ) ) ;
#283 = DIRECTION ( 'NONE',  ( 1.000000000000000000, 0.000000000000000000, 0.000000000000000000 ) ) ;
#284 = AXIS2_PLACEMENT_3D ( 'NONE', #306, #252, #101 ) ;
#285 = EDGE_CURVE ( 'NONE', #309, #205, #139, .T. ) ;
#286 = PERSON_AND_ORGANIZATION_ROLE ( 'creator' ) ;
#287 = EDGE_LOOP ( 'NONE', ( #34, #138, #143, #87 ) ) ;
#288 = VECTOR ( 'NONE', #191, 1000.000000000000000 ) ;
#289 = CC_DESIGN_APPROVAL ( #260, ( #96 ) ) ;
#290 = ORIENTED_EDGE ( 'NONE', *, *, #102, .T. ) ;
#291 = APPROVAL_STATUS ( 'not_yet_approved' ) ;
#292 = VERTEX_POINT ( 'NONE', #130 ) ;
#293 = EDGE_CURVE ( 'NONE', #134, #30, #156, .T. ) ;
#294 = DIRECTION ( 'NONE',  ( -1.000000000000000000, -0.000000000000000000, -0.000000000000000000 ) ) ;
#295 = LINE ( 'NONE', #213, #17 ) ;
#296 = VECTOR ( 'NONE', #299, 1000.000000000000000 ) ;
#297 = LOCAL_TIME ( 17, 12, 54.00000000000000000, #316 ) ;
#298 = EDGE_LOOP ( 'NONE', ( #180, #1 ) ) ;
#299 = DIRECTION ( 'NONE',  ( -1.000000000000000000, -0.000000000000000000, -0.000000000000000000 ) ) ;
#300 = CYLINDRICAL_SURFACE ( 'NONE', #61, 5.000000000000000888 ) ;
#301 = AXIS2_PLACEMENT_3D ( 'NONE', #94, #92, #66 ) ;
#302 = CARTESIAN_POINT ( 'NONE',  ( -1.250000000000000222, 0.000000000000000000, 0.000000000000000000 ) ) ;
#303 = DIRECTION ( 'NONE',  ( -1.000000000000000000, -0.000000000000000000, -0.000000000000000000 ) ) ;
#304 = DIRECTION ( 'NONE',  ( -1.000000000000000000, -0.000000000000000000, -0.000000000000000000 ) ) ;
#305 = EDGE_CURVE ( 'NONE', #30, #134, #233, .T. ) ;
#306 = CARTESIAN_POINT ( 'NONE',  ( 1.250000000000000222, 5.000000000000000000, 0.000000000000000000 ) ) ;
#307 = DESIGN_CONTEXT ( 'detailed design', #216, 'design' ) ;
#308 = APPROVAL_DATE_TIME ( #204, #108 ) ;
#309 = VERTEX_POINT ( 'NONE', #224 ) ;
#310 = APPROVAL_DATE_TIME ( #236, #260 ) ;
#311 = EDGE_LOOP ( 'NONE', ( #264, #24, #290, #146 ) ) ;
#312 = CC_DESIGN_PERSON_AND_ORGANIZATION_ASSIGNMENT ( #79, #184, ( #96 ) ) ;
#313 = CALENDAR_DATE ( 2020, 22, 12 ) ;
#314 = AXIS2_PLACEMENT_3D ( 'NONE', #271, #170, #118 ) ;
#315 = ORIENTED_EDGE ( 'NONE', *, *, #293, .T. ) ;
#316 = COORDINATED_UNIVERSAL_TIME_OFFSET ( 8, 0, .AHEAD. ) ;
#317 = ORIENTED_EDGE ( 'NONE', *, *, #329, .F. ) ;
#318 = ORIENTED_EDGE ( 'NONE', *, *, #220, .F. ) ;
#319 = COORDINATED_UNIVERSAL_TIME_OFFSET ( 8, 0, .AHEAD. ) ;
#320 = CC_DESIGN_DATE_AND_TIME_ASSIGNMENT ( #58, #163, ( #96 ) ) ;
#321 = LINE ( 'NONE', #120, #288 ) ;
#322 = AXIS2_PLACEMENT_3D ( 'NONE', #154, #283, #127 ) ;
#323 = FACE_BOUND ( 'NONE', #185, .T. ) ;
#324 = CARTESIAN_POINT ( 'NONE',  ( 3.000000000000000000, 0.000000000000000000, 12.69999999999999929 ) ) ;
#325 = EDGE_CURVE ( 'NONE', #134, #84, #103, .T. ) ;
#326 = FACE_OUTER_BOUND ( 'NONE', #298, .T. ) ;
#327 = FACE_OUTER_BOUND ( 'NONE', #57, .T. ) ;
#328 = ADVANCED_BREP_SHAPE_REPRESENTATION ( 'Q-OZHWP-R2-10-980-M', ( #226, #25 ), #33 ) ;
#329 = EDGE_CURVE ( 'NONE', #162, #64, #189, .T. ) ;
#330 = CYLINDRICAL_SURFACE ( 'NONE', #131, 12.69999999999999929 ) ;
#331 = CIRCLE ( 'NONE', #20, 5.000000000000001776 ) ;
#332 = CARTESIAN_POINT ( 'NONE',  ( 3.000000000000000000, 0.000000000000000000, 0.000000000000000000 ) ) ;
#333 = DIRECTION ( 'NONE',  ( 0.000000000000000000, 0.000000000000000000, 1.000000000000000000 ) ) ;
#334 = CARTESIAN_POINT ( 'NONE',  ( 3.000000000000000000, 0.000000000000000000, 0.000000000000000000 ) ) ;
#335 = APPROVAL_STATUS ( 'not_yet_approved' ) ;
ENDSEC;
END-ISO-10303-21;
